jueves, septiembre 28, 2006

Hard As A Rock - AC/DC

Siguiendo con las intros, hoy les traigo la de esta gran canción de AC/DC. La idea es ir avanzando de a poco con riffs de canciones conocidas y si pueden hacer sus aportes no duden en hacerlo, siempre hay canciones fáciles con las que uno fue aprendiendo a tocar guitarra y que le pueden ser de mucha utilidad a los demás. Bueno, sin más que decir, les dejo la tablatura:



E||----------------2--4--|--5----4--2--0--2--4--2--
B||----------------0--0--|--0----0--0--0--0--0--0--
G||----------------------|-------------------------
D||----------------------|-------------------------
A||----------------------|-------------------------
E||----------------------|-------------------------


|--L------------4--0--|--L------------4--2--||
|--L------------0--0--|--L------------0--0--||
|---------------------|---------------------||
|---------------------|---------------------||
|---------------------|---------------------||
|---------------------|---------------------||

miércoles, septiembre 27, 2006

The Evil That Men Do - Iron Maiden

Para inaugurar este blog, comenzaremos con la intro de este conocidísimo tema de Iron Maiden, va lento, por eso lo elegí para que vayamos de a poco subiendo la velocidad. Aquí está la tablatura.


E-------------------------------------------------
B-------------------------------------------------
G-------------------------------------------------
D--------------------9--7-------------7----9------
A----------7--10--7-------------10----------------
E-------------------------------------------------

---------------------------------------------------------------------------
---------------------------------------------------------------------------
---------------------------------------------------------------------------
--------------------9--7-------------7----9--------------------------9--7--
----------7--10--7-------------10--------------7-----------7--10--7--------
---------------------------------------------------------------------------

----------------------------------------------------------------------
--------------------------------------------------------8br-----------
---------------------------------------------7h-9p-7------------------
-----------7----9--7------7-------------------------------------------
-----10---------------------------------------------------------------
----------------------------------------------------------------------



Explicación Tablatura
---------------------
h - hammer on
p - pull off
b - bend
br - bend Release (bend y volver a la nota original)